Make your own free website on Tripod.com

"Unspoiled"
By Coal Chamber as preformed on "Coal Chamber"

Tabbed by puppet@antisocialism.com (ICQ# 2517000)
http://www.antisocialism.com/coalchamber

Main Riff
E-----------------------------
B-----------------------------
G-----------------------------
D-0--2-3-0--2-3--0-2--3-2-0---
A-0--2-3-0--2-3--0-2--3-2-0---
E-0--2-3-0--2-3--0-2--3-2-0---

Verse
E-----------------------------
B-----------------------------
G------5/4-5/4-----5/4-5/4----
D-----------------------------
A-(0)-------------------------
E-----------------------------

This should have you about covered for playing the song.
I'm not sure about the pre chorus, however.