Make your own free website on Tripod.com

"Pig"
by coal chamber as performed on "Coal Chamber"

tabbed by puppet@antisocialism.com (ICQ#2517000)
http://www.antisocialism.com/coalchamber

Intro interchanging with bass riff
D-0--
A-0--
E-0--

Riff1
E--------------------
B--------------------
G--------------------
D---9/10-7-7--10-9---
A---7/8--5-5--8--7---
E-0------------------

Riff2
D-2-2--2-2--2-2-2--0-
A-2-2--2-2--2-2-2--0-
E-2-2--2-2--2-2-2--0-

Chorus
D-0--0-2--0-2-3------
A-0--0-2--0-2-3------
E-0--0-2--0-2-3------

THING
G-666^6666^----------
Bend back and forth (half steps)

Riff3
E----2--------
B----2--------
G----2--------
D-2----2-2-3--
A-2----2-2-3--
E-2----2-2-3--

Riff4 "dont the the writting"
D-0-2--0-2-3--0-2--0-3-
A-0-2--0-2-3--0-2--0-3-
E-0-2--0-2-3--0-2--0-3-