Make your own free website on Tripod.com

"Loco"
By Coal Chamber from the "Coal Chamber" album.

Tabbed by: puppet@antisocialism.com (ICQ# 2517000) December 30, 1998
http://www.antisocialism.com/coalchamber

Intro: Light distortion
E---------------------------------------------
B---0--------0--------0-------0-------0---0---
G-4---4--4--(^4)--4--(^4)--4--(^4)-4----4-----

E---------------------------------------------
B---0--------0--------0-------0-------0---0---
G-3---3--3--(^3)--3--(^3)--3--(^3)-3----3-----

*This means play the bend on the 4 or 3 as you are picking the open B. You dont
pick the note as you bend it, its almost like bending the wrong string as you play the B.

Fill
D-2------~
A-2------~
E-0------~

Intro Riff
A-0--4--0--4--0--4--0--4--3--2---0--4--0--4--0--4--0--4--5--4--
E-0--2--0--2--0--2--0--2--3--2---0--2--0--2--0--2--0--2--3--2--

A-0--4--0--4--0--4--0--4--3--2--0--4--0--2^--44-4-5--4-
E-0--2--0--2--0--2--0--2--3--2--0--2--0--2^--22-2-3--2-
(only slightly bend that note)

A-0--4--0--4--0--4--0--4--3--2---0--4--0--4--0--4--0--4--5--4--
E-0--2--0--2--0--2--0--2--3--2---0--2--0--2--0--2--0--2--3--2--

A-0--4--0--4--0--4--0--4--3--2--0--4--0--2^--22-2--5-
E-0--2--0--2--0--2--0--2--3--2--0--2--0--2^--22-2--3-

Verse
E-0--2--0--2--0--2--0--2--3--2---0--2--0--2--0--2--0--2--3--2--
(this is the same thing played for the verse over and over but with different effects)

Chorus1
D-020-2-2--020-22--020-22--020--44--040--44--040--44--040--2~~~~~~~~~~~~~~
A-020-2-2--020-22--020-22--020--44--040--44--040--44--040--2~~~~~~~~~~~~~~
E-020-2-2--020-22--020-22--020--22--020--22--020--22--020--0~~~~~~~~~~~~~~

Post Verse2
D-0-1-2-1--0-1-2-----------------
A-0-1-2-1--0-1-2-----------------
E-0-1-2-1--0-1-2-----------------

Post that post verse2 riff
E-----------------------------------------------------------
B-----------------------------------------------------------
G-44444^^444^4^4^-------------------------------------------
(rapid creative picking and bending)

Intro Bit
E---------------------------------------------
B---0--------0--------0-------0-------0---0---
G-4---4--4--(^4)--4--(^4)--4--(^4)-4----4-----

E---------------------------------------------
B---0--------0--------0-------0-------0---0---
G-3---3--3--(^3)--3--(^3)--3--(^3)-3----3-----

D-2~~~
A-2~~~
E-0~~~

After that get creative on the G string around the 12-13th fret.-