Make your own free website on Tripod.com
 

Loco

Music by Miguel Rascon, Rayna Foss, Mike Cox


Tuning: C# Dropped B

6: B 3: E
5: F# 2: G#
4: B 1: B

Intro: w/ flanger
|----0--0-0-----0------0------0--0-|----0--0-0-----0------0------0--0-|
|--3--3---3^4-3-3^4--3-3^4--3--3---|--2--2---2^3-2-2^3--2-2^3--2--2---|
|----------------------------------|----------------------------------|
|----------------------------------|----------------------------------|
|----------------------------------|----------------------------------|
|----------------------------------|----------------------------------|

:flanger off
|---------|
|---------|
|----7----|
|----7----|
|----5----|
|---------|

Riff A: palm muted w/heavy distortion
|--------------------------------|--------------------------------|
|--------------------------------|--------------------------------|
|--------------------------------|--------------------------------|
|--------------------------------|--------------------------3--2--|
|--0--2--0--2--0--2--0--2--3--2--|--0--2--0--2--0--2--0--2--1--0--|
|--0--2--0--2--0--2--0--2--3--2--|--0--2--0--2--0--2--0--2--------|

|--------------------------------|--------------------------------|
|--------------------------------|--------------------------------|
|--------------------------------|--------------------------------|
|--------------------------------|--------------------------3--2--|
|--0--2--0--2--0--2--0--2--3--2--|--0--2--0--2----2--2--0---1--0--|
|--0--2--0--2--0--2--0--2--3--2--|--0--2--0--2----2--2--0---------|

|--------------------------------|--------------------------------|
|--------------------------------|--------------------------------|
|--------------------------------|--------------------------------|
|--------------------------------|--------------------------3--2--|
|--0--2--0--2--0--2--0--2--3--2--|--0--2--0--2--0--2--0--2--1--0--|
|--0--2--0--2--0--2--0--2--3--2--|--0--2--0--2--0--2--0--2--------|

|--------------------------------|--------------------------------|
|--------------------------------|--------------------------------|
|--------------------------------|--------------------------------|
|--------------------------------|--------------------------------|
|--0--2--0--2--0--2--0--2--3--2--|--0--2--0--2----2--2--0--3------|
|--0--2--0--2--0--2--0--2--3--2--|--0--2--0--2----2--2--0--3------|

|--------------------------------|--------------------------------|
|--------------------------------|--------------------------------|
|--------------------------------|--------------------------------|
|--------------------------------|--------------------------3--2--|
|--0--2--0--2--0--2--0--2--3--2--|--0--2--0--2--0--2--0--2--1--0--|
|--0--2--0--2--0--2--0--2--3--2--|--0--2--0--2--0--2--0--2--------|

|--------------------------------|--------------------------------|
|--------------------------------|--------------------------------|
|--------------------------------|--------------------------------|
|--------------------------------|--------------------------3--2--|
|--0--2--0--2--0--2--0--2--3--2--|--0--2--0--2----2--2--0---1--0--|
|--0--2--0--2--0--2--0--2--3--2--|--0--2--0--2----2--2--0---------|

|--------------------------------|--------------------------------|
|--------------------------------|--------------------------------|
|--------------------------------|--------------------------------|
|--------------------------------|--------------------------3--2--|
|--0--2--0--2--0--2--0--2--3--2--|--0--2--0--2--0--2--0--2--1--0--|
|--0--2--0--2--0--2--0--2--3--2--|--0--2--0--2--0--2--0--2--------|

|--------------------------------|--------------------------------|
|--------------------------------|--------------------------------|
|--------------------------------|--------------------------------|
|--------------------------------|--------------------------3--2--|
|--0--2--0--2--0--2--0--2--3--2--|--0--2--0--2--0--2--0--2--1--0--|
|--0--2--0--2--0--2--0--2--3--2--|--0--2--0--2--0--2--0--2--------|

Verse: w/flanger ad lib noise

Flanger off
|--------------------------------|--------------------------------|
|--------------------------------|--------------------------------|
|--------------------------------|--------------------------------|
|--------------------------------|--------------------------------|
|--------------------------------|--------------------------1--0--|
|--0--2--0--2--0--2--0--2--3--2--|--0--2--0--2--0--2--0--2--------|

w/flanger ad lib noise

Flanger off
|--------------------------------|
|--------------------------------|
|--------------------------------|
|--------------------------------|
|--------------------------1--0--|
|--0--2--0--2--0--2--0--2--------|

Chorus
|----------------------------------------|
|----------------------------------------|
|----------------------------------------|
|----------------------------------------|
|--2-2--2--2-2-2--2--2-2-2--2--2-2-2--2--|
|--2-2--2--2-2-2--2--2-2-2--2--2-2-2--2--|

|--------------------------------------------|------|
|--------------------------------------------|------|
|--------------------------------------------|------|
|--------------------------------------------|------|
|--1--1-1--1--1-1-1--1--1-1-1--1--1-1-1--1-1-|-0----|
|--1--1-1--1--1-1-1--1--1-1-1--1--1-1-1--1-1-|-0----|

|--------------------------------|--------------------------------|
|--------------------------------|--------------------------------|
|--------------------------------|--------------------------------|
|--------------------------------|--------------------------3--2--|
|--0--2--0--2--0--2--0--2--3--2--|--0--2--0--2--0--2--0--2--1--0--|
|--0--2--0--2--0--2--0--2--3--2--|--0--2--0--2--0--2--0--2--------|

|--------------------------------|--------------------------------|
|--------------------------------|--------------------------------|
|--------------------------------|--------------------------------|
|--------------------------------|--------------------------3--2--|
|--0--2--0--2--0--2--0--2--3--2--|--0--2--0--2----2--2--0---1--0--|
|--0--2--0--2--0--2--0--2--3--2--|--0--2--0--2----2--2--0---------|

Verse: w/flanger ad lib noise

Flanger off
|--------------------------------|--------------------------------|
|--------------------------------|--------------------------------|
|--------------------------------|--------------------------------|
|--------------------------------|--------------------------------|
|--------------------------------|--------------------------1--0--|
|--0--2--0--2--0--2--0--2--3--2--|--0--2--0--2--0--2--0--2--------|

w/flanger ad lib noise

Flanger off
|--------------------------------|
|--------------------------------|
|--------------------------------|
|--------------------------------|
|--------------------------1--0--|
|--0--2--0--2--0--2--0--2--------|

Chorus
|----------------------------------------|
|----------------------------------------|
|----------------------------------------|
|----------------------------------------|
|--2-2--2--2-2-2--2--2-2-2--2--2-2-2--2--|
|--2-2--2--2-2-2--2--2-2-2--2--2-2-2--2--|

|--------------------------------------------|------|
|--------------------------------------------|------|
|--------------------------------------------|------|
|--------------------------------------------|------|
|--1--1-1--1--1-1-1--1--1-1-1--1--1-1-1--1-1-|-0----|
|--1--1-1--1--1-1-1--1--1-1-1--1--1-1-1--1-1-|-0----|

|-----------------|
|-----------------|
|-----------------|
|-----------------|
|--1-2-2-1-2-0-3--|
|--1-2-2-1-2-0-3--|

w/Flanger

|---------|----------------|
|---------|----------------|
|--7---8--|--7--8--10--12--|
|---------|----------------|
|--5---6--|--5--6---8--10--|
|--/---/--|--/--/---/---/--|
/ / / / / /

|----0--0-0-----0------0------0--0-|----0--0-0-----0------0------0--0-|
|--3--3---3^4-3-3^4--3-3^4--3--3---|--2--2---2^3-2-2^3--2-2^3--2--2---|
|----------------------------------|----------------------------------|
|----------------------------------|----------------------------------|
|----------------------------------|----------------------------------|
|----------------------------------|----------------------------------|

:flanger off
|---------|
|---------|
|----7----|
|----7----|
|----5----|
|---------|

Riff A: palm muted w/heavy distortion
|--------------------------------|--------------------------------|
|--------------------------------|--------------------------------|
|--------------------------------|--------------------------------|
|--------------------------------|--------------------------3--2--|
|--0--2--0--2--0--2--0--2--3--2--|--0--2--0--2--0--2--0--2--1--0--|
|--0--2--0--2--0--2--0--2--3--2--|--0--2--0--2--0--2--0--2--------|

|--------------------------------|--------------------------------|
|--------------------------------|--------------------------------|
|--------------------------------|--------------------------------|
|--------------------------------|--------------------------3--2--|
|--0--2--0--2--0--2--0--2--3--2--|--0--2--0--2--0--2--0--2--1--0--|
|--0--2--0--2--0--2--0--2--3--2--|--0--2--0--2--0--2--0--2--------|

|--------------------------------|--------------------------------|
|--------------------------------|--------------------------------|
|--------------------------------|--------------------------------|
|--------------------------------|--------------------------3--2--|
|--0--2--0--2--0--2--0--2--3--2--|--0--2--0--2--0--2--0--2--1--0--|
|--0--2--0--2--0--2--0--2--3--2--|--0--2--0--2--0--2--0--2--------|

|--------------------------------|--------------------------------|
|--------------------------------|--------------------------------|
|--------------------------------|--------------------------------|
|--------------------------------|--------------------------3--2--|
|--0--2--0--2--0--2--0--2--3--2--|--0--2--0--2----2--2--0---1--0--|
|--0--2--0--2--0--2--0--2--3--2--|--0--2--0--2----2--2--0---------|

Verse
|--------------------------------|--------------------------------|
|--------------------------------|--------------------------------|
|--------------------------------|--------------------------------|
|--------------------------------|--------------------------------|
|--------------------------------|--------------------------1--0--|
|--0--2--0--2--0--2--0--2--3--2--|--0--2--0--2--0--2--0--2--------|

|--------------------------------|--------------------------------|
|--------------------------------|--------------------------------|
|--------------------------------|--------------------------------|
|--------------------------------|--------------------------------|
|--------------------------------|--------------------------1--0--|
|--0--2--0--2--0--2--0--2--3--2--|--0--2--0--2--0--2--0--2--------|

|--------------------------------|--------------------------------|
|--------------------------------|--------------------------------|
|--------------------------------|--------------------------------|
|--------------------------------|--------------------------------|
|--------------------------------|--------------------------1--0--|
|--0--2--0--2--0--2--0--2--3--2--|--0--2--0--2--0--2--0--2--------|

|--------------------------------|--------------------------------|
|--------------------------------|--------------------------------|
|--------------------------------|--------------------------------|
|--------------------------------|--------------------------------|
|--------------------------------|--------------------------1--0--|
|--0--2--0--2--0--2--0--2--3--2--|--0--2--0--2--0--2--0--2--------|

Chorus
|----------------------------------------|
|----------------------------------------|
|----------------------------------------|
|----------------------------------------|
|--2-2--2--2-2-2--2--2-2-2--2--2-2-2--2--|
|--2-2--2--2-2-2--2--2-2-2--2--2-2-2--2--|

|--------------------------------------------|------|
|--------------------------------------------|------|
|--------------------------------------------|------|
|--------------------------------------------|------|
|--1--1-1--1--1-1-1--1--1-1-1--1--1-1-1--1-1-|-0----|
|--1--1-1--1--1-1-1--1--1-1-1--1--1-1-1--1-1-|-0----|

|-----------------|
|-----------------|
|-----------------|
|-----------------|
|--1-2-2-1-2-0-3--|
|--1-2-2-1-2-0-3--|

Back to Tabs


Copyright Troy Reeves. All rights reserved.
Revised:April 25, 1999