Make your own free website on Tripod.com

"First"
By coal chamber as preformed on coal chamber

tabbed by puppet@antisocialism.com (ICQ#2517000)
http://www.antisocialism.com/coalchamber

Chorus "As she fell"
E--------------------
B-------------7-------
G-------------7-------
D-4-4---5-5-4---7-5---
A-4-4---5-5-4---7-5---
E-4-4---5-5-4---7-5---

Pre Riff1
A-5454-0-45-0--0-4-5--5-4-0--3-2-3-0--0-2-3-2-0--
E-5454-0-45-0--0-4-5--5-4-0--3-2-3-0--0-2-3-2-0--
*Not sure about this one, but its close

Riff1 "Tried, couldnt kick it"
A-22---5-4-5-4--0-4-5--0-4-5-5-4--
E-22---5-4-5-4--0-4-5--0-4-5-5-4--

Riff2 "betray"
D-4-5--0-4-5--5-4-0---
A-4-5--0-4-5--5-4-0---
E-4-5--0-4-5--5-4-0---

Chorus2 "As she fell"
D-44-45-4-44-4-4/7--5-4---
A-44-45-4-44-4-4/7--5-4---
E-44-45-4-44-4-4/7--5-4---

Various Riff
E-7~---
B-7~---
G-7~---