Make your own free website on Tripod.com

"Dreamtime"
by coal chamber as performed on "Coal Chamber"

tabbed by puppet@antisocialism.com (ICQ#2517000)
http://www.antisocialism.com/coalchamber

Intro - Verse
E---2------------------2-------2-----
B-----3------------------3-------3---
G-------2-three times------2-------2-
D-0--------------------------0-------ect....
A------------------------------------
E------------------------------------

Riff1
D------------------------------
A-4-4-4-4-4--4-4-4-4-4--5-5-0--
E-2-2-2-2-2--2-2-2-2-2--3-3-0--

Verse, "keep me satisfied"
E---------------
B---------------
G---------------
D-0-2-3-0--0-3--
A-0-2-3-0--0-3--
E-0-2-3-0--0-3--

End
E----------------------------
B----------------------------
G-4-4-4-4-4--4-4-4-4-4--5-5-5
D-4-4-4-4-4--4-4-4-4-4--5-5-5
A-2-2-2-2-2--2-2-2-2-2--3-3-3
E----------------------------