Make your own free website on Tripod.com

"Clock"
By Coal Chamber as preformed on "Coal Chamber"

Tabbed by puppet@antisocialism.com (ICQ# 2517000)
http://www.antisocialism.com/coalchamber

Intro
E--------------------
B--------------------
G--1-2-3-2--1-2-3-1--
D--------------------
A--------------------
E--------------------
*Not sure about this

Riff1, Palm where needed
D-----------
A-44--4-3---repeat
E-22--2-5---

Then
E-------------------
B-------------------
G-1-2-3-2--1-3-2-1--

Verse, palm muting
D-----------------------------
A-----------------------------
E-0-1-2-2-0--1-1--1-1--2-1-0--

Riff2 still "clock, it count my fears"
D---------------------
A-4-5-0--4-4-5--0-----
E-2-3-0--2-2-3--0-----

Riff3 "you can do better"
E---0------------------
B---0------------------
B---0------------------
D-4----4/5-0--5-4--0---repeat
A-4----4/5-0--5-4--0---
E-2----2/3-0--3-2--0---


A-2-2-2-2-2-2-2--3--
E-2-2-2-2-2-2-2--3--repeat

Riff3 "you can do better"
E---0------------------
B---0------------------
B---0------------------
D-4----4/5-0--5-4--0---repeat
A-4----4/5-0--5-4--0---
E-2----2/3-0--3-2--0---

Some lyrics are repeated the same way when they are played differently, so use your ears.