Make your own free website on Tripod.com

"Blisters"
By Coal Chamber from the "Bride of Chucky" soundtrack.

Tabbed by: puppet@antisocialism.com (ICQ# 2517000) February 15, 1998
http://www.antisocialism.com/coalchamber

Intro and Verse
E----------------------------
B----------------------------repeat
G-3\2p0--3\2-0--3\2-0--3\2p0-
(Ok kiddies time to break out those "Fucking weird guitar effects")

Chorus "something something my own skin"
E---------------------------
B---------------------------
G---------------------------
D---------------------------
A-5\4--0-3\2-0-3\2-0--5\4---
E-3\2--0-3\2-0-3\2-0--3\2---

Post Chorus
E----------------------
B----------------------
G-44444444444444^-3434-
(maybe)

Bridge palm mute
A-2/3\2p0-2-0-2-0-2-2/3\2-0--|--------------------------
E-2/3\2p0-2-0-2-0-2-2/3\2-0--|--0-2-3-0-2-0-2-0-2-3-2-0-