Make your own free website on Tripod.com

"Bigtruck"
By Coal Chamber as preformed on "Coal Chamber"

Tabbed by puppet@antisocialism.com (ICQ# 2517000)
http://www.antisocialism.com/coalchamber

Intro Riff, palm muting
A-------------------------------
E-0-0-0-6-0---0-0-0-0-0--6-0-6--

Riff1 "Big truck, big truck"
D-------------------66------------
A-000--60--00--000--66------------
E-000--60--00--000--66------------
Variations to the intro riff throughout the song

Various Riff
E-2----
B-2----
G-2----

Riff2 "Movin, motion"
E-------2--------2-----------
B-------2--------2-----------
G-------2--------2-----------
PM_D-0-------00--------------
PM_A-0-------00--------------
PM_E-0-------00--------------

PM=Palm mute those strings.

Riff3 "Bigtruck, Bigtruck"
E------2---------2--------22------
B------2---------2--------22------
G------2---------2--------22------
D-0-0-------0-0------0-0----------
A-0-0-------0-0------0-0----------
E-0-0-------0-0------0-0----------