Make your own free website on Tripod.com
 

Big Truck

Music by Miguel Rascon, Rayna Foss, Mike Cox

Tuning: C# Dropped B

6: B 3: E
5: F# 2: G#
4: B 1: B

Intro: w/heavy distortion

|-----------------------------------|---------------------------------|
|-----------------------------------|---------------------------------|
|-----------------------------------|---------------------------------|
|-----------------------------------|---------------------------------|
|-----------------------------------|---------------------------------|
|--0-0-0-6-0--0-0--0-0--6--0-0-6-0--|--0-0-0-6-0--0-0--0-0--6--0-0-1--|

|-----------------------------------|----------------------------------|
|-----------------------------------|----------------------------------|
|-----------------------------------|------------------------8---8-----|
|-----------------------------------|------------------------8---8-----|
|-----------------------------------|------------------------6---6-----|
|--0-0-0-6-0--0-0--0-0--6--0-0-6-0--|--0-0-0-6-0--0-0--0-0-0-----------|

|-----------------------------------|---------------------------------|
|-----------------------------------|---------------------------------|
|-----------------------------------|---------------------------------|
|-----------------------------------|---------------------------------|
|--0-0-0-6-0--0-0--0-0--6--0-0-6-0--|--0-0-0-6-0--0-0--0-0--6--0-0-1--|
|--0-0-0-6-0--0-0--0-0--6--0-0-6-0--|--0-0-0-6-0--0-0--0-0--6--0-0-1--|

|-----------------------------------|----------------------------------|
|-----------------------------------|----------------------------------|
|-----------------------------------|------------------------8---8-----|
|-----------------------------------|------------------------8---8-----|
|--0-0-0-6-0--0-0--0-0--6--0-0-6-0--|--0-0-0-6-0--0-0--0-0-0-6---6-----|
|--0-0-0-6-0--0-0--0-0--6--0-0-6-0--|--0-0-0-6-0--0-0--0-0-0-----------|

|-----------------------------------|---------------------------------|
|-----------------------------------|---------------------------------|
|-----------------------------------|---------------------------------|
|-----------------------------------|---------------------------------|
|--0-0-0-6-0--0-0--0-0--6--0-0-6-0--|--0-0-0-6-0--0-0--0-0--6--0-0-1--|
|--0-0-0-6-0--0-0--0-0--6--0-0-6-0--|--0-0-0-6-0--0-0--0-0--6--0-0-1--|

|-----------------------------------|----------------------------------|
|-----------------------------------|----------------------------------|
|-----------------------------------|------------------------8---8-----|
|-----------------------------------|------------------------8---8-----|
|--0-0-0-6-0--0-0--0-0--6--0-0-6-0--|--0-0-0-6-0--0-0--0-0-0-6---6-----|
|--0-0-0-6-0--0-0--0-0--6--0-0-6-0--|--0-0-0-6-0--0-0--0-0-0-----------|

Verse 1

|-----------------------------------|---------------------------------|
|-----------------------------------|---------------------------------|
|-----------------------------------|---------------------------------|
|-----------------------------------|---------------------------------|
|-----------------------------------|---------------------------------|
|--0-0-0-6-0--0-0--0-0--6--0-0-6-0--|--0-0-0-6-0--0-0--0-0--6--0-0-1--|

|-----------------------------------|----------------------------------|
|-----------------------------------|----------------------------------|
|-----------------------------------|------------------------8---8-----|
|-----------------------------------|------------------------8---8-----|
|-----------------------------------|------------------------6---6-----|
|--0-0-0-6-0--0-0--0-0--6--0-0-6-0--|--0-0-0-6-0--0-0--0-0-0-----------|

|-----------------------------------|---------------------------------|
|-----------------------------------|---------------------------------|
|-----------------------------------|---------------------------------|
|-----------------------------------|---------------------------------|
|-----------------------------------|---------------------------------|
|--0-0-0-6-0--0-0--0-0--6--0-0-6-0--|--0-0-0-6-0--0-0--0-0--6--0-0-1--|

|-----------------------------------|----------------------------------|
|-----------------------------------|----------------------------------|
|-----------------------------------|------------------------8---8-----|
|-----------------------------------|------------------------8---8-----|
|-----------------------------------|------------------------6---6-----|
|--0-0-0-6-0--0-0--0-0--6--0-0-6-0--|--0-0-0-6-0--0-0--0-0-0-----------|

Pre Chorus play twice

|----------------------------|--------------------------|
|----------------------------|--------------------------|
|----------------------------|--------------------------|
|----------------------------|--------------------------|
|--6-----6-6-6----6-----6-6--|--6-----6-6-6---6--0---0--|
|--6-----6-6-6----6-----6-6--|--6-----6-6-6---6--0---0--|
pm--| p.m pm--| < <

Bass solo

|-----|
|-----|
|-----|
|-----|
|--0--|
|--0--|

|-----------------------------------|---------------------------------|
|-----------------------------------|---------------------------------|
|-----------------------------------|---------------------------------|
|-----------------------------------|---------------------------------|
|-----------------------------------|---------------------------------|
|--0-0-0-6-0--0-0--0-0--6--0-0-6-0--|--0-0-0-6-0--0-0--0-0--6--0-0-1--|

|-----------------------------------|----------------------------------|
|-----------------------------------|----------------------------------|
|-----------------------------------|------------------------8---8-----|
|-----------------------------------|------------------------8---8-----|
|-----------------------------------|------------------------6---6-----|
|--0-0-0-6-0--0-0--0-0--6--0-0-6-0--|--0-0-0-6-0--0-0--0-0-0-----------|

|-----------------------------------|---------------------------------|
|-----------------------------------|---------------------------------|
|-----------------------------------|---------------------------------|
|-----------------------------------|---------------------------------|
|--0-0-0-6-0--0-0--0-0--6--0-0-6-0--|--0-0-0-6-0--0-0--0-0--6--0-0-1--|
|--0-0-0-6-0--0-0--0-0--6--0-0-6-0--|--0-0-0-6-0--0-0--0-0--6--0-0-1--|

|-----------------------------------|----------------------------------|
|-----------------------------------|----------------------------------|
|-----------------------------------|------------------------8---8-----|
|-----------------------------------|------------------------8---8-----|
|--0-0-0-6-0--0-0--0-0--6--0-0-6-0--|--0-0-0-6-0--0-0--0-0-0-6---6-----|
|--0-0-0-6-0--0-0--0-0--6--0-0-6-0--|--0-0-0-6-0--0-0--0-0-0-----------|

Verse 2

|-----------------------------------|---------------------------------|
|-----------------------------------|---------------------------------|
|-----------------------------------|---------------------------------|
|-----------------------------------|---------------------------------|
|-----------------------------------|---------------------------------|
|--0-0-0-6-0--0-0--0-0--6--0-0-6-0--|--0-0-0-6-0--0-0--0-0--6--0-0-1--|

|-----------------------------------|----------------------------------|
|-----------------------------------|----------------------------------|
|-----------------------------------|------------------------8---8-----|
|-----------------------------------|------------------------8---8-----|
|-----------------------------------|------------------------6---6-----|
|--0-0-0-6-0--0-0--0-0--6--0-0-6-0--|--0-0-0-6-0--0-0--0-0-0-----------|

|-----------------------------------|---------------------------------|
|-----------------------------------|---------------------------------|
|-----------------------------------|---------------------------------|
|-----------------------------------|---------------------------------|
|-----------------------------------|---------------------------------|
|--0-0-0-6-0--0-0--0-0--6--0-0-6-0--|--0-0-0-6-0--0-0--0-0--6--0-0-1--|

|-----------------------------------|----------------------------------|
|-----------------------------------|----------------------------------|
|-----------------------------------|------------------------8---8-----|
|-----------------------------------|------------------------8---8-----|
|-----------------------------------|------------------------6---6-----|
|--0-0-0-6-0--0-0--0-0--6--0-0-6-0--|--0-0-0-6-0--0-0--0-0-0-----------|

Pre Chorus play twice

|----------------------------|--------------------------|
|----------------------------|--------------------------|
|----------------------------|--------------------------|
|----------------------------|--------------------------|
|--6-----6-6-6----6-----6-6--|--6-----6-6-6---6--0---0--|
|--6-----6-6-6----6-----6-6--|--6-----6-6-6---6--0---0--|
pm--| p.m pm--| < <

Chorus play 8 times

|-------------------|
|-------------------|
|---------7---------|
|---------6---------|
|---------5---------|
|--0--0-------------|

Interlude w/ some weird effects
note: i saw meegs do something with harmonics live,
i dont know if this is exactly it
Gtr 1

|-----------|-----------|-----------|-----------|--------|
|-----------|-----------|-----------|-----------|--------|
|-------12--|-------12--|-------12--|-----------|--------|
|--12-------|--12-------|--12-------|--12---16--|---19---|
|-----------|-----------|-----------|-----------|--------|
|-----------|-----------|-----------|-----------|--------|
NH NH NH NH NH NH NH NH NH

Gtr 2

|-----------|-----------|-----------|-----------|
|-----------|-----------|-----------|-----------|
|-----------|-----------|-----------|-----------|
|-----------|-----------|-----------|-----------|
|-----------|-----------|-----------|-----------|
|-----------|-----------|-----------|-----------|

|-----------------------------------|---------------------------------|
|-----------------------------------|---------------------------------|
|-----------------------------------|---------------------------------|
|-----------------------------------|---------------------------------|
|-----------------------------------|---------------------------------|
|--0-0-0-6-0--0-0--0-0--6--0-0-6-0--|--0-0-0-6-0--0-0--0-0--6--0-0-1--|

|-----------------------------------|----------------------------------|
|-----------------------------------|----------------------------------|
|-----------------------------------|------------------------8---8-----|
|-----------------------------------|------------------------8---8-----|
|-----------------------------------|------------------------6---6-----|
|--0-0-0-6-0--0-0--0-0--6--0-0-6-0--|--0-0-0-6-0--0-0--0-0-0-----------|

Bridge play 4 times

|-----------------------------------|----------------------------------|
|-----------------------------------|----------------------------------|
|-----------------------------------|------------------------8---8-----|
|-----------------------------------|------------------------8---8-----|
|-----------------------------------|------------------------6---6-----|
|--0-0-0-6-0--0-0--0-0--6--0-0-6-0--|--0-0-0-6-0--0-0--0-0-0-----------|

Pre Chorus play twice

|----------------------------|--------------------------|
|----------------------------|--------------------------|
|----------------------------|--------------------------|
|----------------------------|--------------------------|
|--6-----6-6-6----6-----6-6--|--6-----6-6-6---6--0---0--|
|--6-----6-6-6----6-----6-6--|--6-----6-6-6---6--0---0--|
pm--| p.m pm--| < <

Chorus play 7 times

|-------------------|
|-------------------|
|---------7---------|
|---------6---------|
|-------------------|
|--0--0-------------|

|-------------------|
|-------------------|
|---------7--7------|
|---------6--6------|
|-------------------|
|--0--0-------------|

Back to Tabs


Copyright Troy Reeves. All rights reserved.
Revised:April 25, 1999